ISO-10303-21;
HEADER;
FILE_DESCRIPTION (( 'STEP AP203' ),
    '1' );
FILE_NAME ('QB-CTZHWP-20-1550-M.STEP',
    '2020-12-24T01:35:38',
    ( '' ),
    ( '' ),
    'SwSTEP 2.0',
    'SolidWorks 2020',
    '' );
FILE_SCHEMA (( 'CONFIG_CONTROL_DESIGN' ));
ENDSEC;

DATA;
#1 =( NAMED_UNIT ( * ) SI_UNIT ( $, .STERADIAN. ) SOLID_ANGLE_UNIT ( ) );
#2 = ORIENTED_EDGE ( 'NONE', *, *, #315, .F. ) ;
#3 = EDGE_CURVE ( 'NONE', #209, #103, #10, .T. ) ;
#4 = ORIENTED_EDGE ( 'NONE', *, *, #68, .T. ) ;
#5 = CC_DESIGN_DATE_AND_TIME_ASSIGNMENT ( #321, #135, ( #156 ) ) ;
#6 = ORIENTED_EDGE ( 'NONE', *, *, #72, .T. ) ;
#7 = EDGE_CURVE ( 'NONE', #167, #262, #9, .T. ) ;
#8 = ORIENTED_EDGE ( 'NONE', *, *, #7, .F. ) ;
#9 = CIRCLE ( 'NONE', #36, 10.00000000000000000 ) ;
#10 = LINE ( 'NONE', #63, #89 ) ;
#11 = PERSON_AND_ORGANIZATION ( #157, #322 ) ;
#12 = LOCAL_TIME ( 9, 35, 38.00000000000000000, #220 ) ;
#13 = CARTESIAN_POINT ( 'NONE',  ( -1.614212418857619014, 0.000000000000000000, 10.00000000000000000 ) ) ;
#14 = PERSON_AND_ORGANIZATION ( #157, #322 ) ;
#15 = DIRECTION ( 'NONE',  ( -1.000000000000000000, -0.000000000000000000, -0.000000000000000000 ) ) ;
#16 = SHAPE_DEFINITION_REPRESENTATION ( #283, #61 ) ;
#17 = DIRECTION ( 'NONE',  ( 0.000000000000000000, 0.000000000000000000, 1.000000000000000000 ) ) ;
#18 = CALENDAR_DATE ( 2020, 24, 12 ) ;
#19 = CARTESIAN_POINT ( 'NONE',  ( 2.999999999999999112, 12.69999999999999929, 0.000000000000000000 ) ) ;
#20 = PERSON_AND_ORGANIZATION_ROLE ( 'design_supplier' ) ;
#21 = MANIFOLD_SOLID_BREP ( 'Ðý×', #194 ) ;
#22 = DIRECTION ( 'NONE',  ( -1.000000000000000000, -0.000000000000000000, -0.000000000000000000 ) ) ;
#23 = AXIS2_PLACEMENT_3D ( 'NONE', #87, #179, #17 ) ;
#24 = DIRECTION ( 'NONE',  ( 0.000000000000000000, 0.000000000000000000, 1.000000000000000000 ) ) ;
#25 = DIRECTION ( 'NONE',  ( 0.000000000000000000, 0.000000000000000000, 1.000000000000000000 ) ) ;
#26 = DIRECTION ( 'NONE',  ( 0.000000000000000000, 0.000000000000000000, 1.000000000000000000 ) ) ;
#27 = LOCAL_TIME ( 9, 35, 38.00000000000000000, #212 ) ;
#28 = ORIENTED_EDGE ( 'NONE', *, *, #143, .T. ) ;
#29 =( NAMED_UNIT ( * ) PLANE_ANGLE_UNIT ( ) SI_UNIT ( $, .RADIAN. ) );
#30 = ORIENTED_EDGE ( 'NONE', *, *, #80, .F. ) ;
#31 = CIRCLE ( 'NONE', #23, 12.69999999999999929 ) ;
#32 = ORIENTED_EDGE ( 'NONE', *, *, #328, .F. ) ;
#33 = VECTOR ( 'NONE', #305, 1000.000000000000000 ) ;
#34 = DIRECTION ( 'NONE',  ( -1.000000000000000000, -0.000000000000000000, -0.000000000000000000 ) ) ;
#35 = PRODUCT ( 'QB-CTZHWP-20-1550-M', 'QB-CTZHWP-20-1550-M', '', ( #200 ) ) ;
#36 = AXIS2_PLACEMENT_3D ( 'NONE', #43, #34, #292 ) ;
#37 = FACE_OUTER_BOUND ( 'NONE', #124, .T. ) ;
#38 = AXIS2_PLACEMENT_3D ( 'NONE', #98, #189, #275 ) ;
#39 = CARTESIAN_POINT ( 'NONE',  ( -2.500000000000000444, 0.000000000000000000, 0.000000000000000000 ) ) ;
#40 = PERSON_AND_ORGANIZATION ( #157, #322 ) ;
#41 = DIRECTION ( 'NONE',  ( -1.000000000000000000, -0.000000000000000000, -0.000000000000000000 ) ) ;
#42 = SECURITY_CLASSIFICATION_LEVEL ( 'unclassified' ) ;
#43 = CARTESIAN_POINT ( 'NONE',  ( 2.999999999999999112, 0.000000000000000000, 0.000000000000000000 ) ) ;
#44 = APPROVAL_PERSON_ORGANIZATION ( #14, #104, #130 ) ;
#45 = LINE ( 'NONE', #120, #123 ) ;
#46 = CARTESIAN_POINT ( 'NONE',  ( -1.614212418857619014, 1.555301434917138433E-15, -12.69999999999999929 ) ) ;
#47 = DIRECTION ( 'NONE',  ( 0.000000000000000000, 0.000000000000000000, -1.000000000000000000 ) ) ;
#48 = CIRCLE ( 'NONE', #78, 10.00000000000000000 ) ;
#49 = FACE_BOUND ( 'NONE', #196, .T. ) ;
#50 = CYLINDRICAL_SURFACE ( 'NONE', #69, 10.00000000000000000 ) ;
#51 = DIRECTION ( 'NONE',  ( 1.000000000000000000, 0.000000000000000000, 0.000000000000000000 ) ) ;
#52 = EDGE_LOOP ( 'NONE', ( #109, #4 ) ) ;
#53 = AXIS2_PLACEMENT_3D ( 'NONE', #279, #274, #249 ) ;
#54 = ORIENTED_EDGE ( 'NONE', *, *, #300, .F. ) ;
#55 = ORIENTED_EDGE ( 'NONE', *, *, #218, .T. ) ;
#56 = AXIS2_PLACEMENT_3D ( 'NONE', #39, #131, #241 ) ;
#57 = EDGE_LOOP ( 'NONE', ( #259, #314, #125, #54 ) ) ;
#58 = DIRECTION ( 'NONE',  ( 0.000000000000000000, 0.000000000000000000, 1.000000000000000000 ) ) ;
#59 = DIRECTION ( 'NONE',  ( -1.000000000000000000, -0.000000000000000000, -0.000000000000000000 ) ) ;
#60 = DIRECTION ( 'NONE',  ( -1.000000000000000000, -0.000000000000000000, -0.000000000000000000 ) ) ;
#61 = ADVANCED_BREP_SHAPE_REPRESENTATION ( 'QB-CTZHWP-20-1550-M', ( #21, #74 ), #85 ) ;
#62 = AXIS2_PLACEMENT_3D ( 'NONE', #304, #99, #221 ) ;
#63 = CARTESIAN_POINT ( 'NONE',  ( -1.614212418857619014, 0.000000000000000000, 12.69999999999999929 ) ) ;
#64 = CALENDAR_DATE ( 2020, 24, 12 ) ;
#65 = CARTESIAN_POINT ( 'NONE',  ( -3.000000000000000444, 0.000000000000000000, 0.000000000000000000 ) ) ;
#66 = FACE_OUTER_BOUND ( 'NONE', #149, .T. ) ;
#67 = PERSON_AND_ORGANIZATION ( #157, #322 ) ;
#68 = EDGE_CURVE ( 'NONE', #262, #167, #278, .T. ) ;
#69 = AXIS2_PLACEMENT_3D ( 'NONE', #307, #162, #26 ) ;
#70 = FACE_OUTER_BOUND ( 'NONE', #216, .T. ) ;
#71 = FACE_OUTER_BOUND ( 'NONE', #57, .T. ) ;
#72 = EDGE_CURVE ( 'NONE', #103, #290, #163, .T. ) ;
#73 = DIRECTION ( 'NONE',  ( 0.000000000000000000, 0.000000000000000000, 1.000000000000000000 ) ) ;
#74 = AXIS2_PLACEMENT_3D ( 'NONE', #309, #166, #51 ) ;
#75 = DIRECTION ( 'NONE',  ( -1.000000000000000000, -0.000000000000000000, -0.000000000000000000 ) ) ;
#76 = PLANE ( 'NONE',  #174 ) ;
#77 = ORIENTED_EDGE ( 'NONE', *, *, #205, .T. ) ;
#78 = AXIS2_PLACEMENT_3D ( 'NONE', #222, #97, #192 ) ;
#79 = ORIENTED_EDGE ( 'NONE', *, *, #315, .T. ) ;
#80 = EDGE_CURVE ( 'NONE', #238, #107, #270, .T. ) ;
#81 = EDGE_CURVE ( 'NONE', #83, #209, #31, .T. ) ;
#82 = ORIENTED_EDGE ( 'NONE', *, *, #100, .F. ) ;
#83 = VERTEX_POINT ( 'NONE', #153 ) ;
#84 = CARTESIAN_POINT ( 'NONE',  ( -3.000000000000000444, 0.000000000000000000, 10.00000000000000000 ) ) ;
#85 =( GEOMETRIC_REPRESENTATION_CONTEXT ( 3 ) GLOBAL_UNCERTAINTY_ASSIGNED_CONTEXT ( ( #136 ) ) GLOBAL_UNIT_ASSIGNED_CONTEXT ( ( #145, #29, #1 ) ) REPRESENTATION_CONTEXT ( 'NONE', 'WORKASPACE' ) );
#86 = EDGE_LOOP ( 'NONE', ( #169, #257, #284, #311 ) ) ;
#87 = CARTESIAN_POINT ( 'NONE',  ( 3.000000000000000000, 0.000000000000000000, 0.000000000000000000 ) ) ;
#88 = PERSON_AND_ORGANIZATION_ROLE ( 'creator' ) ;
#89 = VECTOR ( 'NONE', #41, 1000.000000000000000 ) ;
#90 = DIRECTION ( 'NONE',  ( -1.000000000000000000, -0.000000000000000000, -0.000000000000000000 ) ) ;
#91 = COORDINATED_UNIVERSAL_TIME_OFFSET ( 8, 0, .AHEAD. ) ;
#92 = DESIGN_CONTEXT ( 'detailed design', #204, 'design' ) ;
#93 = CARTESIAN_POINT ( 'NONE',  ( -1.614212418857619014, 0.000000000000000000, 0.000000000000000000 ) ) ;
#94 = APPROVAL_ROLE ( '' ) ;
#95 = CARTESIAN_POINT ( 'NONE',  ( -1.614212418857619014, 0.000000000000000000, 0.000000000000000000 ) ) ;
#96 = CARTESIAN_POINT ( 'NONE',  ( 2.500000000000000444, 10.00000000000000000, 0.000000000000000000 ) ) ;
#97 = DIRECTION ( 'NONE',  ( 1.000000000000000000, 0.000000000000000000, 0.000000000000000000 ) ) ;
#98 = CARTESIAN_POINT ( 'NONE',  ( 2.500000000000000888, 0.000000000000000000, 0.000000000000000000 ) ) ;
#99 = DIRECTION ( 'NONE',  ( -1.000000000000000000, -0.000000000000000000, -0.000000000000000000 ) ) ;
#100 = EDGE_CURVE ( 'NONE', #171, #105, #199, .T. ) ;
#101 = ORIENTED_EDGE ( 'NONE', *, *, #235, .F. ) ;
#102 = APPLICATION_PROTOCOL_DEFINITION ( 'international standard', 'config_control_design', 1994, #236 ) ;
#103 = VERTEX_POINT ( 'NONE', #150 ) ;
#104 = APPROVAL ( #242, 'UNSPECIFIED' ) ;
#105 = VERTEX_POINT ( 'NONE', #184 ) ;
#106 = DIRECTION ( 'NONE',  ( 0.000000000000000000, 0.000000000000000000, 1.000000000000000000 ) ) ;
#107 = VERTEX_POINT ( 'NONE', #84 ) ;
#108 = CC_DESIGN_SECURITY_CLASSIFICATION ( #318, ( #170 ) ) ;
#109 = ORIENTED_EDGE ( 'NONE', *, *, #7, .T. ) ;
#110 = APPROVAL_DATE_TIME ( #324, #256 ) ;
#111 = DIRECTION ( 'NONE',  ( 0.000000000000000000, 0.000000000000000000, 1.000000000000000000 ) ) ;
#112 = AXIS2_PLACEMENT_3D ( 'NONE', #93, #15, #106 ) ;
#113 = DIRECTION ( 'NONE',  ( 0.000000000000000000, 0.000000000000000000, 1.000000000000000000 ) ) ;
#114 = ADVANCED_FACE ( 'NONE', ( #267 ), #265, .F. ) ;
#115 = CC_DESIGN_DATE_AND_TIME_ASSIGNMENT ( #266, #293, ( #318 ) ) ;
#116 = CARTESIAN_POINT ( 'NONE',  ( -3.000000000000000000, 1.555301434917138433E-15, -12.69999999999999929 ) ) ;
#117 = PERSON_AND_ORGANIZATION_ROLE ( 'classification_officer' ) ;
#118 = CARTESIAN_POINT ( 'NONE',  ( 3.000000000000000000, 0.000000000000000000, 12.69999999999999929 ) ) ;
#119 = AXIS2_PLACEMENT_3D ( 'NONE', #240, #59, #58 ) ;
#120 = CARTESIAN_POINT ( 'NONE',  ( -1.614212418857619014, 0.000000000000000000, 10.00000000000000000 ) ) ;
#121 = CARTESIAN_POINT ( 'NONE',  ( -3.000000000000000000, 0.000000000000000000, 0.000000000000000000 ) ) ;
#122 = DIRECTION ( 'NONE',  ( -1.000000000000000000, -0.000000000000000000, -0.000000000000000000 ) ) ;
#123 = VECTOR ( 'NONE', #330, 1000.000000000000000 ) ;
#124 = EDGE_LOOP ( 'NONE', ( #298, #77, #211, #258 ) ) ;
#125 = ORIENTED_EDGE ( 'NONE', *, *, #100, .T. ) ;
#126 = EDGE_CURVE ( 'NONE', #316, #299, #178, .T. ) ;
#127 = LOCAL_TIME ( 9, 35, 38.00000000000000000, #159 ) ;
#128 = ORIENTED_EDGE ( 'NONE', *, *, #213, .F. ) ;
#129 = CYLINDRICAL_SURFACE ( 'NONE', #334, 10.00000000000000000 ) ;
#130 = APPROVAL_ROLE ( '' ) ;
#131 = DIRECTION ( 'NONE',  ( 1.000000000000000000, 0.000000000000000000, 0.000000000000000000 ) ) ;
#132 = ADVANCED_FACE ( 'NONE', ( #37 ), #129, .F. ) ;
#133 = CARTESIAN_POINT ( 'NONE',  ( 2.500000000000000888, 0.000000000000000000, 0.000000000000000000 ) ) ;
#134 = CARTESIAN_POINT ( 'NONE',  ( 2.500000000000000888, 1.224646799147353256E-15, -10.00000000000000000 ) ) ;
#135 = DATE_TIME_ROLE ( 'creation_date' ) ;
#136 = UNCERTAINTY_MEASURE_WITH_UNIT (LENGTH_MEASURE( 1.000000000000000082E-05 ), #145, 'distance_accuracy_value', 'NONE');
#137 = CARTESIAN_POINT ( 'NONE',  ( -3.000000000000000444, 1.224646799147353256E-15, -10.00000000000000000 ) ) ;
#138 = DIRECTION ( 'NONE',  ( -0.000000000000000000, 0.000000000000000000, 1.000000000000000000 ) ) ;
#139 = AXIS2_PLACEMENT_3D ( 'NONE', #133, #294, #113 ) ;
#140 = CYLINDRICAL_SURFACE ( 'NONE', #53, 10.00000000000000000 ) ;
#141 = AXIS2_PLACEMENT_3D ( 'NONE', #19, #250, #195 ) ;
#142 = CARTESIAN_POINT ( 'NONE',  ( 2.999999999999999112, 1.224646799147353256E-15, -10.00000000000000000 ) ) ;
#143 = EDGE_CURVE ( 'NONE', #316, #107, #214, .T. ) ;
#144 = DIRECTION ( 'NONE',  ( 0.000000000000000000, 0.000000000000000000, 1.000000000000000000 ) ) ;
#145 =( LENGTH_UNIT ( ) NAMED_UNIT ( * ) SI_UNIT ( .MILLI., .METRE. ) );
#146 = ORIENTED_EDGE ( 'NONE', *, *, #245, .T. ) ;
#147 = ORIENTED_EDGE ( 'NONE', *, *, #3, .T. ) ;
#148 = ORIENTED_EDGE ( 'NONE', *, *, #218, .F. ) ;
#149 = EDGE_LOOP ( 'NONE', ( #32, #8, #288, #55 ) ) ;
#150 = CARTESIAN_POINT ( 'NONE',  ( -3.000000000000000000, 0.000000000000000000, 12.69999999999999929 ) ) ;
#151 = CC_DESIGN_PERSON_AND_ORGANIZATION_ASSIGNMENT ( #326, #247, ( #170 ) ) ;
#152 = CARTESIAN_POINT ( 'NONE',  ( -3.000000000000000000, 0.000000000000000000, 0.000000000000000000 ) ) ;
#153 = CARTESIAN_POINT ( 'NONE',  ( 3.000000000000000000, 1.555301434917138433E-15, -12.69999999999999929 ) ) ;
#154 = AXIS2_PLACEMENT_3D ( 'NONE', #193, #22, #25 ) ;
#155 = DIRECTION ( 'NONE',  ( 0.000000000000000000, 0.000000000000000000, 1.000000000000000000 ) ) ;
#156 = PRODUCT_DEFINITION ( 'UNKNOWN', '', #170, #92 ) ;
#157 = PERSON ( 'UNSPECIFIED', 'UNSPECIFIED', 'UNSPECIFIED', ('UNSPECIFIED'), ('UNSPECIFIED'), ('UNSPECIFIED') ) ;
#158 = DATE_AND_TIME ( #64, #239 ) ;
#159 = COORDINATED_UNIVERSAL_TIME_OFFSET ( 8, 0, .AHEAD. ) ;
#160 = CARTESIAN_POINT ( 'NONE',  ( -2.500000000000000444, 1.224646799147353256E-15, -10.00000000000000000 ) ) ;
#161 = APPROVAL_PERSON_ORGANIZATION ( #40, #176, #301 ) ;
#162 = DIRECTION ( 'NONE',  ( -1.000000000000000000, -0.000000000000000000, -0.000000000000000000 ) ) ;
#163 = CIRCLE ( 'NONE', #227, 12.69999999999999929 ) ;
#164 = FACE_OUTER_BOUND ( 'NONE', #177, .T. ) ;
#165 = CYLINDRICAL_SURFACE ( 'NONE', #296, 12.69999999999999929 ) ;
#166 = DIRECTION ( 'NONE',  ( 0.000000000000000000, 0.000000000000000000, 1.000000000000000000 ) ) ;
#167 = VERTEX_POINT ( 'NONE', #271 ) ;
#168 = DIRECTION ( 'NONE',  ( 0.000000000000000000, 0.000000000000000000, -1.000000000000000000 ) ) ;
#169 = ORIENTED_EDGE ( 'NONE', *, *, #235, .T. ) ;
#170 = PRODUCT_DEFINITION_FORMATION_WITH_SPECIFIED_SOURCE ( 'ANY', '', #35, .NOT_KNOWN. ) ;
#171 = VERTEX_POINT ( 'NONE', #134 ) ;
#172 = ORIENTED_EDGE ( 'NONE', *, *, #126, .F. ) ;
#173 = EDGE_LOOP ( 'NONE', ( #203, #79, #28, #146 ) ) ;
#174 = AXIS2_PLACEMENT_3D ( 'NONE', #313, #310, #168 ) ;
#175 = CARTESIAN_POINT ( 'NONE',  ( -1.614212418857619014, 0.000000000000000000, 0.000000000000000000 ) ) ;
#176 = APPROVAL ( #186, 'UNSPECIFIED' ) ;
#177 = EDGE_LOOP ( 'NONE', ( #128, #233, #147, #254 ) ) ;
#178 = CIRCLE ( 'NONE', #56, 10.00000000000000000 ) ;
#179 = DIRECTION ( 'NONE',  ( -1.000000000000000000, -0.000000000000000000, -0.000000000000000000 ) ) ;
#180 = CALENDAR_DATE ( 2020, 24, 12 ) ;
#181 = ADVANCED_FACE ( 'NONE', ( #246, #317 ), #291, .F. ) ;
#182 = VECTOR ( 'NONE', #122, 1000.000000000000000 ) ;
#183 = CALENDAR_DATE ( 2020, 24, 12 ) ;
#184 = CARTESIAN_POINT ( 'NONE',  ( 2.500000000000000888, 0.000000000000000000, 10.00000000000000000 ) ) ;
#185 = CC_DESIGN_PERSON_AND_ORGANIZATION_ASSIGNMENT ( #11, #117, ( #318 ) ) ;
#186 = APPROVAL_STATUS ( 'not_yet_approved' ) ;
#187 = DIRECTION ( 'NONE',  ( -1.000000000000000000, -0.000000000000000000, -0.000000000000000000 ) ) ;
#188 = COORDINATED_UNIVERSAL_TIME_OFFSET ( 8, 0, .AHEAD. ) ;
#189 = DIRECTION ( 'NONE',  ( -1.000000000000000000, -0.000000000000000000, -0.000000000000000000 ) ) ;
#190 = AXIS2_PLACEMENT_3D ( 'NONE', #224, #331, #47 ) ;
#191 = CC_DESIGN_PERSON_AND_ORGANIZATION_ASSIGNMENT ( #67, #20, ( #170 ) ) ;
#192 = DIRECTION ( 'NONE',  ( 0.000000000000000000, 0.000000000000000000, -1.000000000000000000 ) ) ;
#193 = CARTESIAN_POINT ( 'NONE',  ( 3.000000000000000000, 0.000000000000000000, 0.000000000000000000 ) ) ;
#194 = CLOSED_SHELL ( 'NONE', ( #297, #132, #285, #276, #206, #114, #264, #289, #181, #332 ) ) ;
#195 = DIRECTION ( 'NONE',  ( -0.000000000000000000, 0.000000000000000000, 1.000000000000000000 ) ) ;
#196 = EDGE_LOOP ( 'NONE', ( #231, #30 ) ) ;
#197 = LINE ( 'NONE', #255, #308 ) ;
#198 = ORIENTED_EDGE ( 'NONE', *, *, #251, .T. ) ;
#199 = CIRCLE ( 'NONE', #139, 10.00000000000000000 ) ;
#200 = MECHANICAL_CONTEXT ( 'NONE', #236, 'mechanical' ) ;
#201 = ORIENTED_EDGE ( 'NONE', *, *, #81, .F. ) ;
#202 = CIRCLE ( 'NONE', #154, 12.69999999999999929 ) ;
#203 = ORIENTED_EDGE ( 'NONE', *, *, #205, .F. ) ;
#204 = APPLICATION_CONTEXT ( 'configuration controlled 3d designs of mechanical parts and assemblies' ) ;
#205 = EDGE_CURVE ( 'NONE', #299, #238, #253, .T. ) ;
#206 = ADVANCED_FACE ( 'NONE', ( #66 ), #50, .F. ) ;
#207 = EDGE_LOOP ( 'NONE', ( #172, #2 ) ) ;
#208 = DIRECTION ( 'NONE',  ( 0.000000000000000000, 0.000000000000000000, 1.000000000000000000 ) ) ;
#209 = VERTEX_POINT ( 'NONE', #118 ) ;
#210 = APPLICATION_PROTOCOL_DEFINITION ( 'international standard', 'config_control_design', 1994, #204 ) ;
#211 = ORIENTED_EDGE ( 'NONE', *, *, #80, .T. ) ;
#212 = COORDINATED_UNIVERSAL_TIME_OFFSET ( 8, 0, .AHEAD. ) ;
#213 = EDGE_CURVE ( 'NONE', #83, #290, #277, .T. ) ;
#214 = LINE ( 'NONE', #13, #243 ) ;
#215 = PERSON_AND_ORGANIZATION_ROLE ( 'design_owner' ) ;
#216 = EDGE_LOOP ( 'NONE', ( #148, #82 ) ) ;
#217 = CC_DESIGN_APPROVAL ( #256, ( #170 ) ) ;
#218 = EDGE_CURVE ( 'NONE', #105, #171, #287, .T. ) ;
#219 = FACE_OUTER_BOUND ( 'NONE', #86, .T. ) ;
#220 = COORDINATED_UNIVERSAL_TIME_OFFSET ( 8, 0, .AHEAD. ) ;
#221 = DIRECTION ( 'NONE',  ( 0.000000000000000000, 0.000000000000000000, 1.000000000000000000 ) ) ;
#222 = CARTESIAN_POINT ( 'NONE',  ( -2.500000000000000444, 0.000000000000000000, 0.000000000000000000 ) ) ;
#223 = LOCAL_TIME ( 9, 35, 38.00000000000000000, #91 ) ;
#224 = CARTESIAN_POINT ( 'NONE',  ( -3.000000000000000000, 10.00000000000000000, 0.000000000000000000 ) ) ;
#225 = CC_DESIGN_PERSON_AND_ORGANIZATION_ASSIGNMENT ( #244, #215, ( #35 ) ) ;
#226 = PLANE ( 'NONE',  #229 ) ;
#227 = AXIS2_PLACEMENT_3D ( 'NONE', #152, #60, #155 ) ;
#228 = CC_DESIGN_PERSON_AND_ORGANIZATION_ASSIGNMENT ( #303, #88, ( #156 ) ) ;
#229 = AXIS2_PLACEMENT_3D ( 'NONE', #96, #333, #138 ) ;
#230 = CARTESIAN_POINT ( 'NONE',  ( -2.500000000000000444, 0.000000000000000000, 10.00000000000000000 ) ) ;
#231 = ORIENTED_EDGE ( 'NONE', *, *, #245, .F. ) ;
#232 = DIRECTION ( 'NONE',  ( -1.000000000000000000, -0.000000000000000000, -0.000000000000000000 ) ) ;
#233 = ORIENTED_EDGE ( 'NONE', *, *, #81, .T. ) ;
#234 = AXIS2_PLACEMENT_3D ( 'NONE', #95, #187, #24 ) ;
#235 = EDGE_CURVE ( 'NONE', #209, #83, #202, .T. ) ;
#236 = APPLICATION_CONTEXT ( 'configuration controlled 3d designs of mechanical parts and assemblies' ) ;
#237 = EDGE_LOOP ( 'NONE', ( #6, #198 ) ) ;
#238 = VERTEX_POINT ( 'NONE', #137 ) ;
#239 = LOCAL_TIME ( 9, 35, 38.00000000000000000, #188 ) ;
#240 = CARTESIAN_POINT ( 'NONE',  ( 2.999999999999999112, 0.000000000000000000, 0.000000000000000000 ) ) ;
#241 = DIRECTION ( 'NONE',  ( 0.000000000000000000, 0.000000000000000000, -1.000000000000000000 ) ) ;
#242 = APPROVAL_STATUS ( 'not_yet_approved' ) ;
#243 = VECTOR ( 'NONE', #90, 1000.000000000000000 ) ;
#244 = PERSON_AND_ORGANIZATION ( #157, #322 ) ;
#245 = EDGE_CURVE ( 'NONE', #107, #238, #329, .T. ) ;
#246 = FACE_OUTER_BOUND ( 'NONE', #335, .T. ) ;
#247 = PERSON_AND_ORGANIZATION_ROLE ( 'creator' ) ;
#248 = FACE_OUTER_BOUND ( 'NONE', #237, .T. ) ;
#249 = DIRECTION ( 'NONE',  ( 0.000000000000000000, 0.000000000000000000, 1.000000000000000000 ) ) ;
#250 = DIRECTION ( 'NONE',  ( -1.000000000000000000, 0.000000000000000000, -0.000000000000000000 ) ) ;
#251 = EDGE_CURVE ( 'NONE', #290, #103, #260, .T. ) ;
#252 = AXIS2_PLACEMENT_3D ( 'NONE', #121, #75, #73 ) ;
#253 = LINE ( 'NONE', #327, #33 ) ;
#254 = ORIENTED_EDGE ( 'NONE', *, *, #251, .F. ) ;
#255 = CARTESIAN_POINT ( 'NONE',  ( -1.614212418857619014, 1.224646799147353256E-15, -10.00000000000000000 ) ) ;
#256 = APPROVAL ( #319, 'UNSPECIFIED' ) ;
#257 = ORIENTED_EDGE ( 'NONE', *, *, #213, .T. ) ;
#258 = ORIENTED_EDGE ( 'NONE', *, *, #143, .F. ) ;
#259 = ORIENTED_EDGE ( 'NONE', *, *, #68, .F. ) ;
#260 = CIRCLE ( 'NONE', #252, 12.69999999999999929 ) ;
#261 = CC_DESIGN_APPROVAL ( #176, ( #318 ) ) ;
#262 = VERTEX_POINT ( 'NONE', #142 ) ;
#263 = PERSON_AND_ORGANIZATION ( #157, #322 ) ;
#264 = ADVANCED_FACE ( 'NONE', ( #49, #248 ), #306, .F. ) ;
#265 = CYLINDRICAL_SURFACE ( 'NONE', #112, 10.00000000000000000 ) ;
#266 = DATE_AND_TIME ( #180, #12 ) ;
#267 = FACE_OUTER_BOUND ( 'NONE', #173, .T. ) ;
#268 = DIRECTION ( 'NONE',  ( -1.000000000000000000, -0.000000000000000000, -0.000000000000000000 ) ) ;
#269 = APPROVAL_DATE_TIME ( #158, #104 ) ;
#270 = CIRCLE ( 'NONE', #312, 10.00000000000000000 ) ;
#271 = CARTESIAN_POINT ( 'NONE',  ( 2.999999999999999112, 0.000000000000000000, 10.00000000000000000 ) ) ;
#272 = CALENDAR_DATE ( 2020, 24, 12 ) ;
#273 = APPROVAL_PERSON_ORGANIZATION ( #263, #256, #94 ) ;
#274 = DIRECTION ( 'NONE',  ( -1.000000000000000000, -0.000000000000000000, -0.000000000000000000 ) ) ;
#275 = DIRECTION ( 'NONE',  ( 0.000000000000000000, 0.000000000000000000, 1.000000000000000000 ) ) ;
#276 = ADVANCED_FACE ( 'NONE', ( #70 ), #226, .F. ) ;
#277 = LINE ( 'NONE', #46, #182 ) ;
#278 = CIRCLE ( 'NONE', #119, 10.00000000000000000 ) ;
#279 = CARTESIAN_POINT ( 'NONE',  ( -1.614212418857619014, 0.000000000000000000, 0.000000000000000000 ) ) ;
#280 = CC_DESIGN_APPROVAL ( #104, ( #156 ) ) ;
#281 = PRODUCT_RELATED_PRODUCT_CATEGORY ( 'detail', '', ( #35 ) ) ;
#282 = CARTESIAN_POINT ( 'NONE',  ( -1.614212418857619014, 0.000000000000000000, 0.000000000000000000 ) ) ;
#283 = PRODUCT_DEFINITION_SHAPE ( 'NONE', 'NONE',  #156 ) ;
#284 = ORIENTED_EDGE ( 'NONE', *, *, #72, .F. ) ;
#285 = ADVANCED_FACE ( 'NONE', ( #71 ), #140, .F. ) ;
#286 = FACE_OUTER_BOUND ( 'NONE', #207, .T. ) ;
#287 = CIRCLE ( 'NONE', #38, 10.00000000000000000 ) ;
#288 = ORIENTED_EDGE ( 'NONE', *, *, #300, .T. ) ;
#289 = ADVANCED_FACE ( 'NONE', ( #164 ), #165, .T. ) ;
#290 = VERTEX_POINT ( 'NONE', #116 ) ;
#291 = PLANE ( 'NONE',  #141 ) ;
#292 = DIRECTION ( 'NONE',  ( 0.000000000000000000, 0.000000000000000000, 1.000000000000000000 ) ) ;
#293 = DATE_TIME_ROLE ( 'classification_date' ) ;
#294 = DIRECTION ( 'NONE',  ( -1.000000000000000000, -0.000000000000000000, -0.000000000000000000 ) ) ;
#295 = DATE_AND_TIME ( #183, #27 ) ;
#296 = AXIS2_PLACEMENT_3D ( 'NONE', #282, #302, #144 ) ;
#297 = ADVANCED_FACE ( 'NONE', ( #219 ), #325, .T. ) ;
#298 = ORIENTED_EDGE ( 'NONE', *, *, #126, .T. ) ;
#299 = VERTEX_POINT ( 'NONE', #160 ) ;
#300 = EDGE_CURVE ( 'NONE', #167, #105, #45, .T. ) ;
#301 = APPROVAL_ROLE ( '' ) ;
#302 = DIRECTION ( 'NONE',  ( -1.000000000000000000, -0.000000000000000000, -0.000000000000000000 ) ) ;
#303 = PERSON_AND_ORGANIZATION ( #157, #322 ) ;
#304 = CARTESIAN_POINT ( 'NONE',  ( -3.000000000000000444, 0.000000000000000000, 0.000000000000000000 ) ) ;
#305 = DIRECTION ( 'NONE',  ( -1.000000000000000000, -0.000000000000000000, -0.000000000000000000 ) ) ;
#306 = PLANE ( 'NONE',  #190 ) ;
#307 = CARTESIAN_POINT ( 'NONE',  ( -1.614212418857619014, 0.000000000000000000, 0.000000000000000000 ) ) ;
#308 = VECTOR ( 'NONE', #232, 1000.000000000000000 ) ;
#309 = CARTESIAN_POINT ( 'NONE',  ( 0.000000000000000000, 0.000000000000000000, 0.000000000000000000 ) ) ;
#310 = DIRECTION ( 'NONE',  ( 1.000000000000000000, 0.000000000000000000, 0.000000000000000000 ) ) ;
#311 = ORIENTED_EDGE ( 'NONE', *, *, #3, .F. ) ;
#312 = AXIS2_PLACEMENT_3D ( 'NONE', #65, #268, #208 ) ;
#313 = CARTESIAN_POINT ( 'NONE',  ( -2.500000000000000444, 10.00000000000000000, 0.000000000000000000 ) ) ;
#314 = ORIENTED_EDGE ( 'NONE', *, *, #328, .T. ) ;
#315 = EDGE_CURVE ( 'NONE', #299, #316, #48, .T. ) ;
#316 = VERTEX_POINT ( 'NONE', #230 ) ;
#317 = FACE_BOUND ( 'NONE', #52, .T. ) ;
#318 = SECURITY_CLASSIFICATION ( '', '', #42 ) ;
#319 = APPROVAL_STATUS ( 'not_yet_approved' ) ;
#320 = APPROVAL_DATE_TIME ( #295, #176 ) ;
#321 = DATE_AND_TIME ( #272, #127 ) ;
#322 = ORGANIZATION ( 'UNSPECIFIED', 'UNSPECIFIED', '' ) ;
#323 = DIRECTION ( 'NONE',  ( -1.000000000000000000, -0.000000000000000000, -0.000000000000000000 ) ) ;
#324 = DATE_AND_TIME ( #18, #223 ) ;
#325 = CYLINDRICAL_SURFACE ( 'NONE', #234, 12.69999999999999929 ) ;
#326 = PERSON_AND_ORGANIZATION ( #157, #322 ) ;
#327 = CARTESIAN_POINT ( 'NONE',  ( -1.614212418857619014, 1.224646799147353256E-15, -10.00000000000000000 ) ) ;
#328 = EDGE_CURVE ( 'NONE', #262, #171, #197, .T. ) ;
#329 = CIRCLE ( 'NONE', #62, 10.00000000000000000 ) ;
#330 = DIRECTION ( 'NONE',  ( -1.000000000000000000, -0.000000000000000000, -0.000000000000000000 ) ) ;
#331 = DIRECTION ( 'NONE',  ( 1.000000000000000000, 0.000000000000000000, 0.000000000000000000 ) ) ;
#332 = ADVANCED_FACE ( 'NONE', ( #286 ), #76, .F. ) ;
#333 = DIRECTION ( 'NONE',  ( -1.000000000000000000, 0.000000000000000000, -0.000000000000000000 ) ) ;
#334 = AXIS2_PLACEMENT_3D ( 'NONE', #175, #323, #111 ) ;
#335 = EDGE_LOOP ( 'NONE', ( #101, #201 ) ) ;
ENDSEC;
END-ISO-10303-21;
